Diese Frage ist gespeichert in:

Anzeige

COSMiQ feiert Geburtstag mit Euch!

Liebe Community, COSMiQ wird heute 5 Jahre alt! Am 28.10.2009 wurde aus LycosIQ die Wissenscommunity COSMiQ. Zur Feier des Tages haben wir ein kleines Gewinnspiel für Euch organisiert.  weiter ...



Neueste Antworten

496039
deaktivierter_User
deaktivierter_User (Rang: Student)

Original Akkorde von Billy Talent - Fallen Leaves?

Nicht diese einfacvhem Am und Dm und so ... ^^ Ich glaub auch kaum das die das so spielen ...

1 Antwort

611842
WaltherPatricia

WaltherPatricia

Rang: Einsteigerin (31) | Billy Talent (14), Gitarrennoten (8), Gitarrenakkorde (8)

6 Tage nachdem die Frage gestellt worden ist (09.10.2008 19:03)

1

Tabs & Akkorde: billy talent - Fallen Leaves

Intro Part 1

Light Distortion



e|--------------------- ----------------------------------------- ----------|

B|-4-4-4-4-3-3-3-3-3-3-6-4 -4-4-4-4-1-1-1-1---------1-1-1/3-0-0-0-0- -------|

G|-5-0-5-0-4-0-4-0-4-0-0-0-3- 0-3-0-1-0-1-0-5-5-5-5-x-x-x---0-0-0-0---- ----|

D|------------------------------ -----------3-3-3-3-1-1-1/3-0-0-0-0------- -| x2

A|--------------------------------- ---------------------------------------|


D|------------------------------------ ------------------------------------|



Intro Part 2

Heavy Distortion

e|------------------------- ----------------------------------------- ------|

B|---------------------------- ----------------------------------------- ---|

G|-5--5-------------------------- ----------------------------------------- |

D|-5--5-0-5--5--5--5-6-5-3-1--1-1-6- -6-5-3--3-3--1-1-1-3--5-5-5-5-5-------|

A|-3--3-0-5--5--5--5-6-5-3-1--1-1-6--6- 5-3--3-3--1-1-1-3--5-5-5-5-5-------|

D |------0-5--5--5--5-6-5-3-1--1-1-6--6-5-3 --3-3--1-1-1-3--5-5-5-5-5-------|



Verse Part 1

Clean/Light Distortion

e|-3----------------------- 3---------------------------------------- ------|

B|-4-----------7-----------4-- ---------8------------------------------- ---|

G|-5-----------8-----------5----- ------8---------------------------------- |

D|-5----5-5-1--8----5-5-1--5----5-5- 1--8--5-5-1---------------------------|

A|-3----5-5-1--6----5-5-1--3----5-5-1-- 6--5-5-1---------------------------|

D |------5-5-1-------5-5-1-------5-5-1----- 5-5-1---------------------------|



Verse Part 2

Light Distortion

e|------------------------- ----------------------------------------- ------|

B|---------------------------- ----------------------------------------- ---|

G|--5-5-5-5---------------------- ----------------------------------------- |

D|--5-5-5-5--6-6-6-6--8-8-8-8--1-1-1 -1--6-6-6-5-3-3-3-2-1-1-1-3-5-5-5-5---|

A|--3-3-3-3--6-6-6-6--8-8-8-8--1-1-1-1- -6-6-6-5-3-3-3-2-1-1-1-3-5-5-5-5---|

D |-----------6-6-6-6--8-8-8-8--1-1-1-1--6- 6-6-5-3-3-3-2-1-1-1-3-5-5-5-5---|



Pre-chorus

Light Distortion

e|------------------------- ----------------------------------------- ------|

B|---------------------------- ----------------------------------------- ---|

G|--5-5-5-5---------------------- -----------------------4-4-4-4-4-4-4-4--- |

D|--5-5-5-5--6-6-6-6--8-8-8-8--1-1-1 -1--6-6-6-6-6-6-6-6-4-4-4-4-4-4-4-4---|

A|--3-3-3-3--6-6-6-6--8-8-8-8--1-1-1-1- -6-6-6-6-6-6-6-6-2-2-2-2-2-2-2-2---|

D |-----------6-6-6-6--8-8-8-8--1-1-1-1--6- 6-6-6-6-6-6-6-------------------|



Chorus

Heavy Distortion

e|------------------------- ----------------------------------------- ------|

B|---------------------------- ----------------------------------------- ---|

G|-5--5-------------------------- ----------------------------------------- |

D|-5--5-0-5--5--5--5-6-5-3-1--1-1-6- -6-5-3--3-3--1-1-1-3--5-5-5-5-5-------| x2

A|-3--3-0-5--5--5--5-6-5-3-1--1-1-6 --6-5-3--3-3--1-1-1-3--5-5-5-5-5-------|


D|------0-5--5--5--5-6-5-3-1--1-1-6--6 -5-3--3-3--1-1-1-3--5-5-5-5-5-------|



Post Chorus

Light/Heavy Distortion

e|-3---3--3---------------- -----------3---3--3---------------------- ------|

B|-4---4--4---------8--8-8---- --------4---4--4---------8--8-8---------- ---|

G|-5---5--5---------8--8-8------- -----5---5--5---------8--8-8------------- |

D|(5)-(5)(5)-5-5-1--8--8-8-----5-5-1 -(5)-(5)(5)-5-5-1--8--8-8--5-5-1------|

A|(3)-(3)(3)-5-5-1--6--6-6-----5-5-1-(3 )-(3)(3)-5-5-1--6--6-6--5-5-1------|

D |-----------5-5-1-------------5-5-1------ ------5-5-1----------5-5-1------|



Verse Part 1

Clean/Light Distortion

e|-3----------------------- 3---------------------------------------- ------|

B|-4-----------7-----------4-- ---------8------------------------------- ---|

G|-5-----------8-----------5----- ------8---------------------------------- |

D|-5----5-5-1--8----5-5-1--5----5-5- 1--8--5-5-1---------------------------|

A|-3----5-5-1--6----5-5-1--3----5-5-1-- 6--5-5-1---------------------------|

0 Kommentare

Dein Kommentar zu dieser Antwort

Noch nicht registriert bei COSMiQ?
Melde dich hier an!

Bewertung des Fragestellers:

hilfreich

Gute Antwort meinen:

letzte 10 Meinungen:

[Fenster schließen]
1

Als gute Antwort bewerten

Kommentare zur Antwort:

0

Kommentar abgeben

Diese Frage ist bereits geschlossen, daher sind keine Antworten mehr möglich. Du kannst jedoch einzelne Antworten kommentieren oder einen Kommentar hinterlassen.

Diese Frage:

  • Kommentare

 

Das könnte Dich auch interessieren:

Nicht gefunden wonach Du suchst?

Dann stelle Deine Frage doch schnell und kostenlos!